ISO-10303-21;
HEADER;
/****************************************************************
 * Generated by software with PDE/Lib inside                    *
 * PDE/Lib Version 3.2.2, created Thu Mar 23, 2000 at 18:38:49  *
 * International Technegroup Inc. (www.iti-oh.com)              *
 ****************************************************************/
FILE_DESCRIPTION((''),'2;1');
FILE_NAME('GSF-50-01.stp','2008-02-17T16:14:23',(''),(''),'Mechanical Desktop.R8.0.24.0','Mechanical Desktop.R8.0.24.0',', , ');
FILE_SCHEMA(('CONFIG_CONTROL_DESIGN'));
ENDSEC;
DATA;
#8=(NAMED_UNIT(*)PLANE_ANGLE_UNIT()SI_UNIT($,.RADIAN.));
#9=DIMENSIONAL_EXPONENTS(0.0,0.0,0.0,0.0,0.0,0.0,0.0);
#10=PLANE_ANGLE_MEASURE_WITH_UNIT(PLANE_ANGLE_MEASURE(0.017453292500000),#8);
#14=(CONVERSION_BASED_UNIT('DEGREE',#10)NAMED_UNIT(#9)PLANE_ANGLE_UNIT());
#18=(NAMED_UNIT(*)SI_UNIT($,.STERADIAN.)SOLID_ANGLE_UNIT());
#22=(LENGTH_UNIT()NAMED_UNIT(*)SI_UNIT(.MILLI.,.METRE.));
#23=UNCERTAINTY_MEASURE_WITH_UNIT(LENGTH_MEASURE(0.000001000000000),#22,'DISTANCE_ACCURACY_VALUE','');
#28=(GEOMETRIC_REPRESENTATION_CONTEXT(3)GLOBAL_UNCERTAINTY_ASSIGNED_CONTEXT((#23))GLOBAL_UNIT_ASSIGNED_CONTEXT((#14,#18,#22))REPRESENTATION_CONTEXT('None','None'));
#29=APPLICATION_CONTEXT('CONFIGURATION CONTROLLED 3D DESIGNS OF MECHANICAL PARTS AND ASSEMBLIES');
#30=APPLICATION_PROTOCOL_DEFINITION('INTERNATIONAL STANDARD','config_control_design',1995,#29);
#31=MECHANICAL_CONTEXT('3D Mechanical Parts',#29,'mechanical');
#32=PRODUCT('GSF-50-01A','GSF-50-01',' ',(#31));
#33=PRODUCT_RELATED_PRODUCT_CATEGORY('detail',$,(#32,#130));
#34=PRODUCT_CATEGORY('part',$);
#35=PRODUCT_CATEGORY_RELATIONSHIP('None','None',#34,#33);
#36=PERSON('1','Design','Joe',$,$,$);
#37=ORGANIZATION($,'None','None');
#38=PERSON_AND_ORGANIZATION(#36,#37);
#39=PERSON_AND_ORGANIZATION_ROLE('design_owner');
#40=CC_DESIGN_PERSON_AND_ORGANIZATION_ASSIGNMENT(#38,#39,(#32,#130));
#41=PRODUCT_DEFINITION_FORMATION_WITH_SPECIFIED_SOURCE('None','None',#32,.NOT_KNOWN.);
#42=PERSON('2','Creator','Joe',$,$,$);
#43=ORGANIZATION($,'None','None');
#44=PERSON_AND_ORGANIZATION(#42,#43);
#45=PERSON_AND_ORGANIZATION_ROLE('creator');
#46=CC_DESIGN_PERSON_AND_ORGANIZATION_ASSIGNMENT(#44,#45,(#41,#131));
#47=PERSON('3','Supplier','Joe',$,$,$);
#48=ORGANIZATION($,'None','None');
#49=PERSON_AND_ORGANIZATION(#47,#48);
#50=PERSON_AND_ORGANIZATION_ROLE('design_supplier');
#51=CC_DESIGN_PERSON_AND_ORGANIZATION_ASSIGNMENT(#49,#50,(#41,#131));
#52=APPROVAL_STATUS('approved');
#53=APPROVAL(#52,'None');
#54=PERSON('4','Approver','Joe',$,$,$);
#55=ORGANIZATION($,'None','None');
#56=PERSON_AND_ORGANIZATION(#54,#55);
#57=APPROVAL_ROLE('approver');
#58=APPROVAL_PERSON_ORGANIZATION(#56,#53,#57);
#59=COORDINATED_UNIVERSAL_TIME_OFFSET(8,$,.BEHIND.);
#60=CALENDAR_DATE(1996,29,5);
#61=LOCAL_TIME(12,0,0.0,#59);
#62=DATE_AND_TIME(#60,#61);
#63=APPROVAL_DATE_TIME(#62,#53);
#64=CC_DESIGN_APPROVAL(#53,(#41,#131));
#65=SECURITY_CLASSIFICATION_LEVEL('unclassified');
#66=SECURITY_CLASSIFICATION('security','None',#65);
#67=CC_DESIGN_SECURITY_CLASSIFICATION(#66,(#41,#131,#701));
#68=APPROVAL_STATUS('approved');
#69=APPROVAL(#68,'None');
#70=PERSON('5','Approver','Joe',$,$,$);
#71=ORGANIZATION($,'None','None');
#72=PERSON_AND_ORGANIZATION(#70,#71);
#73=APPROVAL_ROLE('approver');
#74=APPROVAL_PERSON_ORGANIZATION(#72,#69,#73);
#75=COORDINATED_UNIVERSAL_TIME_OFFSET(8,$,.BEHIND.);
#76=CALENDAR_DATE(1996,29,5);
#77=LOCAL_TIME(12,0,0.0,#75);
#78=DATE_AND_TIME(#76,#77);
#79=APPROVAL_DATE_TIME(#78,#69);
#80=CC_DESIGN_APPROVAL(#69,(#66));
#81=PERSON('6','Classifier','Joe',$,$,$);
#82=ORGANIZATION($,'None','None');
#83=PERSON_AND_ORGANIZATION(#81,#82);
#84=PERSON_AND_ORGANIZATION_ROLE('classification_officer');
#85=CC_DESIGN_PERSON_AND_ORGANIZATION_ASSIGNMENT(#83,#84,(#66));
#86=COORDINATED_UNIVERSAL_TIME_OFFSET(8,$,.BEHIND.);
#87=CALENDAR_DATE(1996,29,5);
#88=LOCAL_TIME(12,0,0.0,#86);
#89=DATE_AND_TIME(#87,#88);
#90=DATE_TIME_ROLE('classification_date');
#91=CC_DESIGN_DATE_AND_TIME_ASSIGNMENT(#89,#90,(#66));
#92=DESIGN_CONTEXT('Design Context',#29,'design');
#93=PRODUCT_DEFINITION('None','None',#41,#92);
#94=PERSON('7','Creator','Joe',$,$,$);
#95=ORGANIZATION($,'None','None');
#96=PERSON_AND_ORGANIZATION(#94,#95);
#97=PERSON_AND_ORGANIZATION_ROLE('creator');
#98=CC_DESIGN_PERSON_AND_ORGANIZATION_ASSIGNMENT(#96,#97,(#93,#132));
#99=COORDINATED_UNIVERSAL_TIME_OFFSET(8,$,.BEHIND.);
#100=CALENDAR_DATE(1996,29,5);
#101=LOCAL_TIME(12,0,0.0,#99);
#102=DATE_AND_TIME(#100,#101);
#103=DATE_TIME_ROLE('creation_date');
#104=CC_DESIGN_DATE_AND_TIME_ASSIGNMENT(#102,#103,(#93,#132));
#105=APPROVAL_STATUS('approved');
#106=APPROVAL(#105,'None');
#107=PERSON('8','Approver','Joe',$,$,$);
#108=ORGANIZATION($,'None','None');
#109=PERSON_AND_ORGANIZATION(#107,#108);
#110=APPROVAL_ROLE('approver');
#111=APPROVAL_PERSON_ORGANIZATION(#109,#106,#110);
#112=COORDINATED_UNIVERSAL_TIME_OFFSET(8,$,.BEHIND.);
#113=CALENDAR_DATE(1996,29,5);
#114=LOCAL_TIME(12,0,0.0,#112);
#115=DATE_AND_TIME(#113,#114);
#116=APPROVAL_DATE_TIME(#115,#106);
#117=CC_DESIGN_APPROVAL(#106,(#93,#132));
#118=CARTESIAN_POINT('NONE',(0.0,0.0,0.0));
#119=DIRECTION('NONE',(0.0,0.0,1.0));
#120=DIRECTION('NONE',(1.0,0.0,0.0));
#121=AXIS2_PLACEMENT_3D('NONE',#118,#119,#120);
#122=SHAPE_REPRESENTATION('SR1',(#121,#695),#28);
#123=PRODUCT_DEFINITION_SHAPE('PDS1','Test Part',#93);
#124=SHAPE_DEFINITION_REPRESENTATION(#123,#122);
#129=(GEOMETRIC_REPRESENTATION_CONTEXT(3)GLOBAL_UNCERTAINTY_ASSIGNED_CONTEXT((#23))GLOBAL_UNIT_ASSIGNED_CONTEXT((#14,#18,#22))REPRESENTATION_CONTEXT('Component','Component'));
#130=PRODUCT('GSF-50-01','GSF-50-01',' ',(#31));
#131=PRODUCT_DEFINITION_FORMATION_WITH_SPECIFIED_SOURCE('None','None',#130,.NOT_KNOWN.);
#132=PRODUCT_DEFINITION('None','None',#131,#92);
#133=SHAPE_REPRESENTATION('SR2',(#121),#129);
#134=PRODUCT_DEFINITION_SHAPE('PDS2','Test Part',#132);
#135=SHAPE_DEFINITION_REPRESENTATION(#134,#133);
#136=CARTESIAN_POINT('',(21.000000000000004,-20.999999999999996,1.650000000000000));
#137=DIRECTION('',(0.0,0.0,-1.0));
#138=DIRECTION('',(1.0,0.0,0.0));
#139=AXIS2_PLACEMENT_3D('',#136,#137,#138);
#140=CYLINDRICAL_SURFACE('',#139,3.0);
#141=CARTESIAN_POINT('',(18.000000000000004,-20.999999999999996,-0.850000000000000));
#142=VERTEX_POINT('',#141);
#143=CARTESIAN_POINT('',(21.000000000000004,-17.999999999999996,-0.850000000000000));
#144=VERTEX_POINT('',#143);
#145=CARTESIAN_POINT('',(21.000000000000004,-20.999999999999996,-0.850000000000000));
#146=DIRECTION('',(0.0,0.0,-1.0));
#147=DIRECTION('',(1.0,0.0,0.0));
#148=AXIS2_PLACEMENT_3D('',#145,#146,#147);
#149=CIRCLE('',#148,3.0);
#150=EDGE_CURVE('',#142,#144,#149,.T.);
#151=ORIENTED_EDGE('',*,*,#150,.T.);
#152=CARTESIAN_POINT('',(21.000000000000004,-17.999999999999996,1.650000000000000));
#153=VERTEX_POINT('',#152);
#154=CARTESIAN_POINT('',(21.000000000000004,-17.999999999999996,1.650000000000000));
#155=DIRECTION('',(0.0,0.0,-1.0));
#156=VECTOR('',#155,2.500000000000000);
#157=LINE('',#154,#156);
#158=EDGE_CURVE('',#153,#144,#157,.T.);
#159=ORIENTED_EDGE('',*,*,#158,.F.);
#160=CARTESIAN_POINT('',(18.000000000000004,-20.999999999999996,1.650000000000000));
#161=VERTEX_POINT('',#160);
#162=CARTESIAN_POINT('',(21.000000000000004,-20.999999999999996,1.650000000000000));
#163=DIRECTION('',(0.0,0.0,-1.0));
#164=DIRECTION('',(1.0,0.0,0.0));
#165=AXIS2_PLACEMENT_3D('',#162,#163,#164);
#166=CIRCLE('',#165,3.0);
#167=EDGE_CURVE('',#161,#153,#166,.T.);
#168=ORIENTED_EDGE('',*,*,#167,.F.);
#169=CARTESIAN_POINT('',(18.000000000000004,-20.999999999999996,1.650000000000000));
#170=DIRECTION('',(0.0,0.0,-1.0));
#171=VECTOR('',#170,2.500000000000000);
#172=LINE('',#169,#171);
#173=EDGE_CURVE('',#161,#142,#172,.T.);
#174=ORIENTED_EDGE('',*,*,#173,.T.);
#175=EDGE_LOOP('',(#151,#159,#168,#174));
#176=FACE_OUTER_BOUND('',#175,.T.);
#177=ADVANCED_FACE('',(#176),#140,.F.);
#178=CARTESIAN_POINT('',(21.000000000000004,-17.999999999999996,1.650000000000000));
#179=DIRECTION('',(0.0,-1.0,0.0));
#180=DIRECTION('',(0.0,0.0,-1.0));
#181=AXIS2_PLACEMENT_3D('',#178,#179,#180);
#182=PLANE('',#181);
#183=CARTESIAN_POINT('',(25.000000000000004,-17.999999999999996,-0.850000000000000));
#184=VERTEX_POINT('',#183);
#185=CARTESIAN_POINT('',(21.000000000000004,-17.999999999999996,-0.850000000000000));
#186=DIRECTION('',(1.0,0.0,0.0));
#187=VECTOR('',#186,4.0);
#188=LINE('',#185,#187);
#189=EDGE_CURVE('',#144,#184,#188,.T.);
#190=ORIENTED_EDGE('',*,*,#189,.T.);
#191=CARTESIAN_POINT('',(25.000000000000004,-17.999999999999996,1.650000000000000));
#192=VERTEX_POINT('',#191);
#193=CARTESIAN_POINT('',(25.000000000000004,-17.999999999999996,1.650000000000000));
#194=DIRECTION('',(0.0,0.0,-1.0));
#195=VECTOR('',#194,2.500000000000000);
#196=LINE('',#193,#195);
#197=EDGE_CURVE('',#192,#184,#196,.T.);
#198=ORIENTED_EDGE('',*,*,#197,.F.);
#199=CARTESIAN_POINT('',(21.000000000000004,-17.999999999999996,1.650000000000000));
#200=DIRECTION('',(1.0,0.0,0.0));
#201=VECTOR('',#200,4.0);
#202=LINE('',#199,#201);
#203=EDGE_CURVE('',#153,#192,#202,.T.);
#204=ORIENTED_EDGE('',*,*,#203,.F.);
#205=ORIENTED_EDGE('',*,*,#158,.T.);
#206=EDGE_LOOP('',(#190,#198,#204,#205));
#207=FACE_OUTER_BOUND('',#206,.T.);
#208=ADVANCED_FACE('',(#207),#182,.T.);
#209=CARTESIAN_POINT('',(25.000000000000004,-17.999999999999996,1.650000000000000));
#210=DIRECTION('',(1.0,0.0,0.0));
#211=DIRECTION('',(0.0,0.0,-1.0));
#212=AXIS2_PLACEMENT_3D('',#209,#210,#211);
#213=PLANE('',#212);
#214=CARTESIAN_POINT('',(24.999999999999996,17.999999999999996,-0.850000000000000));
#215=VERTEX_POINT('',#214);
#216=CARTESIAN_POINT('',(25.000000000000004,-17.999999999999996,-0.850000000000000));
#217=DIRECTION('',(0.0,1.0,0.0));
#218=VECTOR('',#217,35.999999999999993);
#219=LINE('',#216,#218);
#220=EDGE_CURVE('',#184,#215,#219,.T.);
#221=ORIENTED_EDGE('',*,*,#220,.T.);
#222=CARTESIAN_POINT('',(24.999999999999996,17.999999999999996,1.650000000000000));
#223=VERTEX_POINT('',#222);
#224=CARTESIAN_POINT('',(24.999999999999996,17.999999999999996,1.650000000000000));
#225=DIRECTION('',(0.0,0.0,-1.0));
#226=VECTOR('',#225,2.500000000000000);
#227=LINE('',#224,#226);
#228=EDGE_CURVE('',#223,#215,#227,.T.);
#229=ORIENTED_EDGE('',*,*,#228,.F.);
#230=CARTESIAN_POINT('',(25.000000000000004,-17.999999999999996,1.650000000000000));
#231=DIRECTION('',(0.0,1.0,0.0));
#232=VECTOR('',#231,35.999999999999993);
#233=LINE('',#230,#232);
#234=EDGE_CURVE('',#192,#223,#233,.T.);
#235=ORIENTED_EDGE('',*,*,#234,.F.);
#236=ORIENTED_EDGE('',*,*,#197,.T.);
#237=EDGE_LOOP('',(#221,#229,#235,#236));
#238=FACE_OUTER_BOUND('',#237,.T.);
#239=ADVANCED_FACE('',(#238),#213,.T.);
#240=CARTESIAN_POINT('',(24.999999999999996,17.999999999999996,1.650000000000000));
#241=DIRECTION('',(0.0,1.0,0.0));
#242=DIRECTION('',(0.0,0.0,1.0));
#243=AXIS2_PLACEMENT_3D('',#240,#241,#242);
#244=PLANE('',#243);
#245=CARTESIAN_POINT('',(21.000000000000007,18.0,-0.850000000000000));
#246=VERTEX_POINT('',#245);
#247=CARTESIAN_POINT('',(24.999999999999996,17.999999999999996,-0.850000000000000));
#248=DIRECTION('',(-1.0,0.0,0.0));
#249=VECTOR('',#248,3.999999999999989);
#250=LINE('',#247,#249);
#251=EDGE_CURVE('',#215,#246,#250,.T.);
#252=ORIENTED_EDGE('',*,*,#251,.T.);
#253=CARTESIAN_POINT('',(21.000000000000007,18.0,1.650000000000000));
#254=VERTEX_POINT('',#253);
#255=CARTESIAN_POINT('',(21.000000000000007,18.0,1.650000000000000));
#256=DIRECTION('',(0.0,0.0,-1.0));
#257=VECTOR('',#256,2.500000000000000);
#258=LINE('',#255,#257);
#259=EDGE_CURVE('',#254,#246,#258,.T.);
#260=ORIENTED_EDGE('',*,*,#259,.F.);
#261=CARTESIAN_POINT('',(24.999999999999996,17.999999999999996,1.650000000000000));
#262=DIRECTION('',(-1.0,0.0,0.0));
#263=VECTOR('',#262,3.999999999999989);
#264=LINE('',#261,#263);
#265=EDGE_CURVE('',#223,#254,#264,.T.);
#266=ORIENTED_EDGE('',*,*,#265,.F.);
#267=ORIENTED_EDGE('',*,*,#228,.T.);
#268=EDGE_LOOP('',(#252,#260,#266,#267));
#269=FACE_OUTER_BOUND('',#268,.T.);
#270=ADVANCED_FACE('',(#269),#244,.T.);
#271=CARTESIAN_POINT('',(21.000000000000007,21.000000000000004,1.650000000000000));
#272=DIRECTION('',(0.0,0.0,-1.0));
#273=DIRECTION('',(1.0,0.0,0.0));
#274=AXIS2_PLACEMENT_3D('',#271,#272,#273);
#275=CYLINDRICAL_SURFACE('',#274,3.000000000000004);
#276=CARTESIAN_POINT('',(18.0,21.000000000000004,-0.850000000000000));
#277=VERTEX_POINT('',#276);
#278=CARTESIAN_POINT('',(21.000000000000007,21.000000000000004,-0.850000000000000));
#279=DIRECTION('',(0.0,0.0,-1.0));
#280=DIRECTION('',(1.0,0.0,0.0));
#281=AXIS2_PLACEMENT_3D('',#278,#279,#280);
#282=CIRCLE('',#281,3.000000000000004);
#283=EDGE_CURVE('',#246,#277,#282,.T.);
#284=ORIENTED_EDGE('',*,*,#283,.T.);
#285=CARTESIAN_POINT('',(18.0,21.000000000000004,1.650000000000000));
#286=VERTEX_POINT('',#285);
#287=CARTESIAN_POINT('',(18.0,21.000000000000004,1.650000000000000));
#288=DIRECTION('',(0.0,0.0,-1.0));
#289=VECTOR('',#288,2.500000000000000);
#290=LINE('',#287,#289);
#291=EDGE_CURVE('',#286,#277,#290,.T.);
#292=ORIENTED_EDGE('',*,*,#291,.F.);
#293=CARTESIAN_POINT('',(21.000000000000007,21.000000000000004,1.650000000000000));
#294=DIRECTION('',(0.0,0.0,-1.0));
#295=DIRECTION('',(1.0,0.0,0.0));
#296=AXIS2_PLACEMENT_3D('',#293,#294,#295);
#297=CIRCLE('',#296,3.000000000000004);
#298=EDGE_CURVE('',#254,#286,#297,.T.);
#299=ORIENTED_EDGE('',*,*,#298,.F.);
#300=ORIENTED_EDGE('',*,*,#259,.T.);
#301=EDGE_LOOP('',(#284,#292,#299,#300));
#302=FACE_OUTER_BOUND('',#301,.T.);
#303=ADVANCED_FACE('',(#302),#275,.F.);
#304=CARTESIAN_POINT('',(18.0,21.000000000000004,1.650000000000000));
#305=DIRECTION('',(1.0,0.0,0.0));
#306=DIRECTION('',(0.0,0.0,-1.0));
#307=AXIS2_PLACEMENT_3D('',#304,#305,#306);
#308=PLANE('',#307);
#309=CARTESIAN_POINT('',(18.000000000000004,25.0,-0.850000000000000));
#310=VERTEX_POINT('',#309);
#311=CARTESIAN_POINT('',(18.0,21.000000000000004,-0.850000000000000));
#312=DIRECTION('',(0.0,1.0,0.0));
#313=VECTOR('',#312,3.999999999999996);
#314=LINE('',#311,#313);
#315=EDGE_CURVE('',#277,#310,#314,.T.);
#316=ORIENTED_EDGE('',*,*,#315,.T.);
#317=CARTESIAN_POINT('',(18.000000000000004,25.0,1.650000000000000));
#318=VERTEX_POINT('',#317);
#319=CARTESIAN_POINT('',(18.000000000000004,25.0,1.650000000000000));
#320=DIRECTION('',(0.0,0.0,-1.0));
#321=VECTOR('',#320,2.500000000000000);
#322=LINE('',#319,#321);
#323=EDGE_CURVE('',#318,#310,#322,.T.);
#324=ORIENTED_EDGE('',*,*,#323,.F.);
#325=CARTESIAN_POINT('',(18.0,21.000000000000004,1.650000000000000));
#326=DIRECTION('',(0.0,1.0,0.0));
#327=VECTOR('',#326,3.999999999999996);
#328=LINE('',#325,#327);
#329=EDGE_CURVE('',#286,#318,#328,.T.);
#330=ORIENTED_EDGE('',*,*,#329,.F.);
#331=ORIENTED_EDGE('',*,*,#291,.T.);
#332=EDGE_LOOP('',(#316,#324,#330,#331));
#333=FACE_OUTER_BOUND('',#332,.T.);
#334=ADVANCED_FACE('',(#333),#308,.T.);
#335=CARTESIAN_POINT('',(18.000000000000004,25.0,1.650000000000000));
#336=DIRECTION('',(0.0,1.0,0.0));
#337=DIRECTION('',(0.0,0.0,1.0));
#338=AXIS2_PLACEMENT_3D('',#335,#336,#337);
#339=PLANE('',#338);
#340=CARTESIAN_POINT('',(-18.0,25.000000000000004,-0.850000000000000));
#341=VERTEX_POINT('',#340);
#342=CARTESIAN_POINT('',(18.000000000000004,25.0,-0.850000000000000));
#343=DIRECTION('',(-1.0,0.0,0.0));
#344=VECTOR('',#343,36.0);
#345=LINE('',#342,#344);
#346=EDGE_CURVE('',#310,#341,#345,.T.);
#347=ORIENTED_EDGE('',*,*,#346,.T.);
#348=CARTESIAN_POINT('',(-18.0,25.000000000000004,1.650000000000000));
#349=VERTEX_POINT('',#348);
#350=CARTESIAN_POINT('',(-18.0,25.000000000000004,1.650000000000000));
#351=DIRECTION('',(0.0,0.0,-1.0));
#352=VECTOR('',#351,2.500000000000000);
#353=LINE('',#350,#352);
#354=EDGE_CURVE('',#349,#341,#353,.T.);
#355=ORIENTED_EDGE('',*,*,#354,.F.);
#356=CARTESIAN_POINT('',(18.000000000000004,25.0,1.650000000000000));
#357=DIRECTION('',(-1.0,0.0,0.0));
#358=VECTOR('',#357,36.0);
#359=LINE('',#356,#358);
#360=EDGE_CURVE('',#318,#349,#359,.T.);
#361=ORIENTED_EDGE('',*,*,#360,.F.);
#362=ORIENTED_EDGE('',*,*,#323,.T.);
#363=EDGE_LOOP('',(#347,#355,#361,#362));
#364=FACE_OUTER_BOUND('',#363,.T.);
#365=ADVANCED_FACE('',(#364),#339,.T.);
#366=CARTESIAN_POINT('',(-18.0,25.000000000000004,1.650000000000000));
#367=DIRECTION('',(-1.0,0.0,0.0));
#368=DIRECTION('',(0.0,0.0,1.0));
#369=AXIS2_PLACEMENT_3D('',#366,#367,#368);
#370=PLANE('',#369);
#371=CARTESIAN_POINT('',(-18.0,21.0,-0.850000000000000));
#372=VERTEX_POINT('',#371);
#373=CARTESIAN_POINT('',(-18.0,25.000000000000004,-0.850000000000000));
#374=DIRECTION('',(0.0,-1.0,0.0));
#375=VECTOR('',#374,4.000000000000004);
#376=LINE('',#373,#375);
#377=EDGE_CURVE('',#341,#372,#376,.T.);
#378=ORIENTED_EDGE('',*,*,#377,.T.);
#379=CARTESIAN_POINT('',(-18.0,21.0,1.650000000000000));
#380=VERTEX_POINT('',#379);
#381=CARTESIAN_POINT('',(-18.0,21.0,1.650000000000000));
#382=DIRECTION('',(0.0,0.0,-1.0));
#383=VECTOR('',#382,2.500000000000000);
#384=LINE('',#381,#383);
#385=EDGE_CURVE('',#380,#372,#384,.T.);
#386=ORIENTED_EDGE('',*,*,#385,.F.);
#387=CARTESIAN_POINT('',(-18.0,25.000000000000004,1.650000000000000));
#388=DIRECTION('',(0.0,-1.0,0.0));
#389=VECTOR('',#388,4.000000000000004);
#390=LINE('',#387,#389);
#391=EDGE_CURVE('',#349,#380,#390,.T.);
#392=ORIENTED_EDGE('',*,*,#391,.F.);
#393=ORIENTED_EDGE('',*,*,#354,.T.);
#394=EDGE_LOOP('',(#378,#386,#392,#393));
#395=FACE_OUTER_BOUND('',#394,.T.);
#396=ADVANCED_FACE('',(#395),#370,.T.);
#397=CARTESIAN_POINT('',(-21.0,21.0,1.650000000000000));
#398=DIRECTION('',(0.0,0.0,-1.0));
#399=DIRECTION('',(1.0,0.0,0.0));
#400=AXIS2_PLACEMENT_3D('',#397,#398,#399);
#401=CYLINDRICAL_SURFACE('',#400,3.0);
#402=CARTESIAN_POINT('',(-21.0,17.999999999999996,-0.850000000000000));
#403=VERTEX_POINT('',#402);
#404=CARTESIAN_POINT('',(-21.0,21.0,-0.850000000000000));
#405=DIRECTION('',(0.0,0.0,-1.0));
#406=DIRECTION('',(1.0,0.0,0.0));
#407=AXIS2_PLACEMENT_3D('',#404,#405,#406);
#408=CIRCLE('',#407,3.0);
#409=EDGE_CURVE('',#372,#403,#408,.T.);
#410=ORIENTED_EDGE('',*,*,#409,.T.);
#411=CARTESIAN_POINT('',(-21.0,17.999999999999996,1.650000000000000));
#412=VERTEX_POINT('',#411);
#413=CARTESIAN_POINT('',(-21.0,17.999999999999996,1.650000000000000));
#414=DIRECTION('',(0.0,0.0,-1.0));
#415=VECTOR('',#414,2.500000000000000);
#416=LINE('',#413,#415);
#417=EDGE_CURVE('',#412,#403,#416,.T.);
#418=ORIENTED_EDGE('',*,*,#417,.F.);
#419=CARTESIAN_POINT('',(-21.0,21.0,1.650000000000000));
#420=DIRECTION('',(0.0,0.0,-1.0));
#421=DIRECTION('',(1.0,0.0,0.0));
#422=AXIS2_PLACEMENT_3D('',#419,#420,#421);
#423=CIRCLE('',#422,3.0);
#424=EDGE_CURVE('',#380,#412,#423,.T.);
#425=ORIENTED_EDGE('',*,*,#424,.F.);
#426=ORIENTED_EDGE('',*,*,#385,.T.);
#427=EDGE_LOOP('',(#410,#418,#425,#426));
#428=FACE_OUTER_BOUND('',#427,.T.);
#429=ADVANCED_FACE('',(#428),#401,.F.);
#430=CARTESIAN_POINT('',(-21.0,17.999999999999996,1.650000000000000));
#431=DIRECTION('',(0.0,1.0,0.0));
#432=DIRECTION('',(0.0,0.0,1.0));
#433=AXIS2_PLACEMENT_3D('',#430,#431,#432);
#434=PLANE('',#433);
#435=CARTESIAN_POINT('',(-25.0,18.0,-0.850000000000000));
#436=VERTEX_POINT('',#435);
#437=CARTESIAN_POINT('',(-21.0,17.999999999999996,-0.850000000000000));
#438=DIRECTION('',(-1.0,0.0,0.0));
#439=VECTOR('',#438,4.0);
#440=LINE('',#437,#439);
#441=EDGE_CURVE('',#403,#436,#440,.T.);
#442=ORIENTED_EDGE('',*,*,#441,.T.);
#443=CARTESIAN_POINT('',(-25.0,18.0,1.650000000000000));
#444=VERTEX_POINT('',#443);
#445=CARTESIAN_POINT('',(-25.0,18.0,1.650000000000000));
#446=DIRECTION('',(0.0,0.0,-1.0));
#447=VECTOR('',#446,2.500000000000000);
#448=LINE('',#445,#447);
#449=EDGE_CURVE('',#444,#436,#448,.T.);
#450=ORIENTED_EDGE('',*,*,#449,.F.);
#451=CARTESIAN_POINT('',(-21.0,17.999999999999996,1.650000000000000));
#452=DIRECTION('',(-1.0,0.0,0.0));
#453=VECTOR('',#452,4.0);
#454=LINE('',#451,#453);
#455=EDGE_CURVE('',#412,#444,#454,.T.);
#456=ORIENTED_EDGE('',*,*,#455,.F.);
#457=ORIENTED_EDGE('',*,*,#417,.T.);
#458=EDGE_LOOP('',(#442,#450,#456,#457));
#459=FACE_OUTER_BOUND('',#458,.T.);
#460=ADVANCED_FACE('',(#459),#434,.T.);
#461=CARTESIAN_POINT('',(-25.0,18.0,1.650000000000000));
#462=DIRECTION('',(-1.0,0.0,0.0));
#463=DIRECTION('',(0.0,0.0,1.0));
#464=AXIS2_PLACEMENT_3D('',#461,#462,#463);
#465=PLANE('',#464);
#466=CARTESIAN_POINT('',(-25.000000000000004,-18.0,-0.850000000000000));
#467=VERTEX_POINT('',#466);
#468=CARTESIAN_POINT('',(-25.0,18.0,-0.850000000000000));
#469=DIRECTION('',(0.0,-1.0,0.0));
#470=VECTOR('',#469,36.0);
#471=LINE('',#468,#470);
#472=EDGE_CURVE('',#436,#467,#471,.T.);
#473=ORIENTED_EDGE('',*,*,#472,.T.);
#474=CARTESIAN_POINT('',(-25.000000000000004,-18.0,1.650000000000000));
#475=VERTEX_POINT('',#474);
#476=CARTESIAN_POINT('',(-25.000000000000004,-18.0,1.650000000000000));
#477=DIRECTION('',(0.0,0.0,-1.0));
#478=VECTOR('',#477,2.500000000000000);
#479=LINE('',#476,#478);
#480=EDGE_CURVE('',#475,#467,#479,.T.);
#481=ORIENTED_EDGE('',*,*,#480,.F.);
#482=CARTESIAN_POINT('',(-25.0,18.0,1.650000000000000));
#483=DIRECTION('',(0.0,-1.0,0.0));
#484=VECTOR('',#483,36.0);
#485=LINE('',#482,#484);
#486=EDGE_CURVE('',#444,#475,#485,.T.);
#487=ORIENTED_EDGE('',*,*,#486,.F.);
#488=ORIENTED_EDGE('',*,*,#449,.T.);
#489=EDGE_LOOP('',(#473,#481,#487,#488));
#490=FACE_OUTER_BOUND('',#489,.T.);
#491=ADVANCED_FACE('',(#490),#465,.T.);
#492=CARTESIAN_POINT('',(-25.000000000000004,-18.0,1.650000000000000));
#493=DIRECTION('',(0.0,-1.0,0.0));
#494=DIRECTION('',(0.0,0.0,-1.0));
#495=AXIS2_PLACEMENT_3D('',#492,#493,#494);
#496=PLANE('',#495);
#497=CARTESIAN_POINT('',(-21.0,-18.0,-0.850000000000000));
#498=VERTEX_POINT('',#497);
#499=CARTESIAN_POINT('',(-25.000000000000004,-18.0,-0.850000000000000));
#500=DIRECTION('',(1.0,0.0,0.0));
#501=VECTOR('',#500,4.000000000000004);
#502=LINE('',#499,#501);
#503=EDGE_CURVE('',#467,#498,#502,.T.);
#504=ORIENTED_EDGE('',*,*,#503,.T.);
#505=CARTESIAN_POINT('',(-21.0,-18.0,1.650000000000000));
#506=VERTEX_POINT('',#505);
#507=CARTESIAN_POINT('',(-21.0,-18.0,1.650000000000000));
#508=DIRECTION('',(0.0,0.0,-1.0));
#509=VECTOR('',#508,2.500000000000000);
#510=LINE('',#507,#509);
#511=EDGE_CURVE('',#506,#498,#510,.T.);
#512=ORIENTED_EDGE('',*,*,#511,.F.);
#513=CARTESIAN_POINT('',(-25.000000000000004,-18.0,1.650000000000000));
#514=DIRECTION('',(1.0,0.0,0.0));
#515=VECTOR('',#514,4.000000000000004);
#516=LINE('',#513,#515);
#517=EDGE_CURVE('',#475,#506,#516,.T.);
#518=ORIENTED_EDGE('',*,*,#517,.F.);
#519=ORIENTED_EDGE('',*,*,#480,.T.);
#520=EDGE_LOOP('',(#504,#512,#518,#519));
#521=FACE_OUTER_BOUND('',#520,.T.);
#522=ADVANCED_FACE('',(#521),#496,.T.);
#523=CARTESIAN_POINT('',(-21.0,-21.0,1.650000000000000));
#524=DIRECTION('',(0.0,0.0,-1.0));
#525=DIRECTION('',(1.0,0.0,0.0));
#526=AXIS2_PLACEMENT_3D('',#523,#524,#525);
#527=CYLINDRICAL_SURFACE('',#526,3.0);
#528=CARTESIAN_POINT('',(-18.0,-21.0,-0.850000000000000));
#529=VERTEX_POINT('',#528);
#530=CARTESIAN_POINT('',(-21.0,-21.0,-0.850000000000000));
#531=DIRECTION('',(0.0,0.0,-1.0));
#532=DIRECTION('',(1.0,0.0,0.0));
#533=AXIS2_PLACEMENT_3D('',#530,#531,#532);
#534=CIRCLE('',#533,3.0);
#535=EDGE_CURVE('',#498,#529,#534,.T.);
#536=ORIENTED_EDGE('',*,*,#535,.T.);
#537=CARTESIAN_POINT('',(-18.0,-21.0,1.650000000000000));
#538=VERTEX_POINT('',#537);
#539=CARTESIAN_POINT('',(-18.0,-21.0,1.650000000000000));
#540=DIRECTION('',(0.0,0.0,-1.0));
#541=VECTOR('',#540,2.500000000000000);
#542=LINE('',#539,#541);
#543=EDGE_CURVE('',#538,#529,#542,.T.);
#544=ORIENTED_EDGE('',*,*,#543,.F.);
#545=CARTESIAN_POINT('',(-21.0,-21.0,1.650000000000000));
#546=DIRECTION('',(0.0,0.0,-1.0));
#547=DIRECTION('',(1.0,0.0,0.0));
#548=AXIS2_PLACEMENT_3D('',#545,#546,#547);
#549=CIRCLE('',#548,3.0);
#550=EDGE_CURVE('',#506,#538,#549,.T.);
#551=ORIENTED_EDGE('',*,*,#550,.F.);
#552=ORIENTED_EDGE('',*,*,#511,.T.);
#553=EDGE_LOOP('',(#536,#544,#551,#552));
#554=FACE_OUTER_BOUND('',#553,.T.);
#555=ADVANCED_FACE('',(#554),#527,.F.);
#556=CARTESIAN_POINT('',(-18.0,-21.0,1.650000000000000));
#557=DIRECTION('',(-1.0,0.0,0.0));
#558=DIRECTION('',(0.0,0.0,1.0));
#559=AXIS2_PLACEMENT_3D('',#556,#557,#558);
#560=PLANE('',#559);
#561=CARTESIAN_POINT('',(-18.0,-25.000000000000004,-0.850000000000000));
#562=VERTEX_POINT('',#561);
#563=CARTESIAN_POINT('',(-18.0,-21.0,-0.850000000000000));
#564=DIRECTION('',(0.0,-1.0,0.0));
#565=VECTOR('',#564,4.000000000000004);
#566=LINE('',#563,#565);
#567=EDGE_CURVE('',#529,#562,#566,.T.);
#568=ORIENTED_EDGE('',*,*,#567,.T.);
#569=CARTESIAN_POINT('',(-18.0,-25.000000000000004,1.650000000000000));
#570=VERTEX_POINT('',#569);
#571=CARTESIAN_POINT('',(-18.0,-25.000000000000004,1.650000000000000));
#572=DIRECTION('',(0.0,0.0,-1.0));
#573=VECTOR('',#572,2.500000000000000);
#574=LINE('',#571,#573);
#575=EDGE_CURVE('',#570,#562,#574,.T.);
#576=ORIENTED_EDGE('',*,*,#575,.F.);
#577=CARTESIAN_POINT('',(-18.0,-21.0,1.650000000000000));
#578=DIRECTION('',(0.0,-1.0,0.0));
#579=VECTOR('',#578,4.000000000000004);
#580=LINE('',#577,#579);
#581=EDGE_CURVE('',#538,#570,#580,.T.);
#582=ORIENTED_EDGE('',*,*,#581,.F.);
#583=ORIENTED_EDGE('',*,*,#543,.T.);
#584=EDGE_LOOP('',(#568,#576,#582,#583));
#585=FACE_OUTER_BOUND('',#584,.T.);
#586=ADVANCED_FACE('',(#585),#560,.T.);
#587=CARTESIAN_POINT('',(-18.0,-25.000000000000004,1.650000000000000));
#588=DIRECTION('',(0.0,-1.0,0.0));
#589=DIRECTION('',(0.0,0.0,-1.0));
#590=AXIS2_PLACEMENT_3D('',#587,#588,#589);
#591=PLANE('',#590);
#592=CARTESIAN_POINT('',(18.000000000000004,-24.999999999999996,-0.850000000000000));
#593=VERTEX_POINT('',#592);
#594=CARTESIAN_POINT('',(-18.0,-25.000000000000004,-0.850000000000000));
#595=DIRECTION('',(1.0,0.0,0.0));
#596=VECTOR('',#595,36.0);
#597=LINE('',#594,#596);
#598=EDGE_CURVE('',#562,#593,#597,.T.);
#599=ORIENTED_EDGE('',*,*,#598,.T.);
#600=CARTESIAN_POINT('',(18.000000000000004,-24.999999999999996,1.650000000000000));
#601=VERTEX_POINT('',#600);
#602=CARTESIAN_POINT('',(18.000000000000004,-24.999999999999996,1.650000000000000));
#603=DIRECTION('',(0.0,0.0,-1.0));
#604=VECTOR('',#603,2.500000000000000);
#605=LINE('',#602,#604);
#606=EDGE_CURVE('',#601,#593,#605,.T.);
#607=ORIENTED_EDGE('',*,*,#606,.F.);
#608=CARTESIAN_POINT('',(-18.0,-25.000000000000004,1.650000000000000));
#609=DIRECTION('',(1.0,0.0,0.0));
#610=VECTOR('',#609,36.0);
#611=LINE('',#608,#610);
#612=EDGE_CURVE('',#570,#601,#611,.T.);
#613=ORIENTED_EDGE('',*,*,#612,.F.);
#614=ORIENTED_EDGE('',*,*,#575,.T.);
#615=EDGE_LOOP('',(#599,#607,#613,#614));
#616=FACE_OUTER_BOUND('',#615,.T.);
#617=ADVANCED_FACE('',(#616),#591,.T.);
#618=CARTESIAN_POINT('',(18.000000000000004,-24.999999999999996,1.650000000000000));
#619=DIRECTION('',(1.0,0.0,0.0));
#620=DIRECTION('',(0.0,0.0,-1.0));
#621=AXIS2_PLACEMENT_3D('',#618,#619,#620);
#622=PLANE('',#621);
#623=CARTESIAN_POINT('',(18.000000000000004,-24.999999999999996,-0.850000000000000));
#624=DIRECTION('',(0.0,1.0,0.0));
#625=VECTOR('',#624,4.0);
#626=LINE('',#623,#625);
#627=EDGE_CURVE('',#593,#142,#626,.T.);
#628=ORIENTED_EDGE('',*,*,#627,.T.);
#629=ORIENTED_EDGE('',*,*,#173,.F.);
#630=CARTESIAN_POINT('',(18.000000000000004,-24.999999999999996,1.650000000000000));
#631=DIRECTION('',(0.0,1.0,0.0));
#632=VECTOR('',#631,4.0);
#633=LINE('',#630,#632);
#634=EDGE_CURVE('',#601,#161,#633,.T.);
#635=ORIENTED_EDGE('',*,*,#634,.F.);
#636=ORIENTED_EDGE('',*,*,#606,.T.);
#637=EDGE_LOOP('',(#628,#629,#635,#636));
#638=FACE_OUTER_BOUND('',#637,.T.);
#639=ADVANCED_FACE('',(#638),#622,.T.);
#640=CARTESIAN_POINT('',(-1.998401E-015,-8.881784E-016,-0.850000000000000));
#641=DIRECTION('',(0.0,0.0,1.0));
#642=DIRECTION('',(1.0,0.0,0.0));
#643=AXIS2_PLACEMENT_3D('',#640,#641,#642);
#644=PLANE('',#643);
#645=ORIENTED_EDGE('',*,*,#150,.F.);
#646=ORIENTED_EDGE('',*,*,#627,.F.);
#647=ORIENTED_EDGE('',*,*,#598,.F.);
#648=ORIENTED_EDGE('',*,*,#567,.F.);
#649=ORIENTED_EDGE('',*,*,#535,.F.);
#650=ORIENTED_EDGE('',*,*,#503,.F.);
#651=ORIENTED_EDGE('',*,*,#472,.F.);
#652=ORIENTED_EDGE('',*,*,#441,.F.);
#653=ORIENTED_EDGE('',*,*,#409,.F.);
#654=ORIENTED_EDGE('',*,*,#377,.F.);
#655=ORIENTED_EDGE('',*,*,#346,.F.);
#656=ORIENTED_EDGE('',*,*,#315,.F.);
#657=ORIENTED_EDGE('',*,*,#283,.F.);
#658=ORIENTED_EDGE('',*,*,#251,.F.);
#659=ORIENTED_EDGE('',*,*,#220,.F.);
#660=ORIENTED_EDGE('',*,*,#189,.F.);
#661=EDGE_LOOP('',(#645,#646,#647,#648,#649,#650,#651,#652,#653,#654,#655,#656,#657,#658,#659,#660));
#662=FACE_OUTER_BOUND('',#661,.T.);
#663=ADVANCED_FACE('',(#662),#644,.F.);
#664=CARTESIAN_POINT('',(-1.998401E-015,-8.881784E-016,1.650000000000000));
#665=DIRECTION('',(0.0,0.0,1.0));
#666=DIRECTION('',(1.0,0.0,0.0));
#667=AXIS2_PLACEMENT_3D('',#664,#665,#666);
#668=PLANE('',#667);
#669=ORIENTED_EDGE('',*,*,#634,.T.);
#670=ORIENTED_EDGE('',*,*,#167,.T.);
#671=ORIENTED_EDGE('',*,*,#203,.T.);
#672=ORIENTED_EDGE('',*,*,#234,.T.);
#673=ORIENTED_EDGE('',*,*,#265,.T.);
#674=ORIENTED_EDGE('',*,*,#298,.T.);
#675=ORIENTED_EDGE('',*,*,#329,.T.);
#676=ORIENTED_EDGE('',*,*,#360,.T.);
#677=ORIENTED_EDGE('',*,*,#391,.T.);
#678=ORIENTED_EDGE('',*,*,#424,.T.);
#679=ORIENTED_EDGE('',*,*,#455,.T.);
#680=ORIENTED_EDGE('',*,*,#486,.T.);
#681=ORIENTED_EDGE('',*,*,#517,.T.);
#682=ORIENTED_EDGE('',*,*,#550,.T.);
#683=ORIENTED_EDGE('',*,*,#581,.T.);
#684=ORIENTED_EDGE('',*,*,#612,.T.);
#685=EDGE_LOOP('',(#669,#670,#671,#672,#673,#674,#675,#676,#677,#678,#679,#680,#681,#682,#683,#684));
#686=FACE_OUTER_BOUND('',#685,.T.);
#687=ADVANCED_FACE('',(#686),#668,.T.);
#688=CLOSED_SHELL('',(#177,#208,#239,#270,#303,#334,#365,#396,#429,#460,#491,#522,#555,#586,#617,#639,#663,#687));
#689=MANIFOLD_SOLID_BREP('A65',#688);
#690=ADVANCED_BREP_SHAPE_REPRESENTATION('ABSR1',(#689),#129);
#691=SHAPE_REPRESENTATION_RELATIONSHIP('SRRPL1',' ',#690,#133);
#692=CARTESIAN_POINT('NONE',(0.0,0.0,-1.650000000000000));
#693=DIRECTION('NONE',(0.0,0.0,1.0));
#694=DIRECTION('NONE',(1.0,0.0,0.0));
#695=AXIS2_PLACEMENT_3D('NONE',#692,#693,#694);
#696=ITEM_DEFINED_TRANSFORMATION('IDT1',' ',#121,#695);
#700=(REPRESENTATION_RELATIONSHIP(' ',' ',#133,#122)REPRESENTATION_RELATIONSHIP_WITH_TRANSFORMATION(#696)SHAPE_REPRESENTATION_RELATIONSHIP());
#701=NEXT_ASSEMBLY_USAGE_OCCURRENCE('NAUO1','GSF-50-01','GSF-50-01',#93,#132,$);
#702=PRODUCT_DEFINITION_SHAPE('PDS_NAUO1',' ',#701);
#703=CONTEXT_DEPENDENT_SHAPE_REPRESENTATION(#700,#702);
ENDSEC;
END-ISO-10303-21;
