ISO-10303-21;
HEADER;
FILE_DESCRIPTION (( 'STEP AP203' ),
    '1' );
FILE_NAME ('UME-110-45-10.STEP',
    '2023-08-07T09:42:53',
    ( '' ),
    ( '' ),
    'SwSTEP 2.0',
    'SolidWorks 2022',
    '' );
FILE_SCHEMA (( 'CONFIG_CONTROL_DESIGN' ));
ENDSEC;

DATA;
#1 = FACE_OUTER_BOUND ( 'NONE', #271, .T. ) ;
#2 = DIRECTION ( 'NONE',  ( 0.000000000000000000, 0.000000000000000000, 1.000000000000000000 ) ) ;
#3 = APPROVAL_PERSON_ORGANIZATION ( #107, #89, #328 ) ;
#4 = ORIENTED_EDGE ( 'NONE', *, *, #318, .T. ) ;
#5 = AXIS2_PLACEMENT_3D ( 'NONE', #117, #263, #230 ) ;
#6 = DATE_TIME_ROLE ( 'creation_date' ) ;
#7 = ADVANCED_FACE ( 'NONE', ( #233, #1 ), #319, .F. ) ;
#8 = DATE_AND_TIME ( #332, #29 ) ;
#9 = APPROVAL_STATUS ( 'not_yet_approved' ) ;
#10 = AXIS2_PLACEMENT_3D ( 'NONE', #203, #39, #288 ) ;
#11 = EDGE_LOOP ( 'NONE', ( #69 ) ) ;
#12 = SECURITY_CLASSIFICATION ( '', '', #140 ) ;
#13 = PRODUCT_RELATED_PRODUCT_CATEGORY ( 'detail', '', ( #267 ) ) ;
#14 = CARTESIAN_POINT ( 'NONE',  ( 0.000000000000000000, 8.400000000000000355, 0.000000000000000000 ) ) ;
#15 = FACE_BOUND ( 'NONE', #133, .T. ) ;
#16 = CARTESIAN_POINT ( 'NONE',  ( 0.000000000000000000, 4.500000000000000000, 2.600000000000000533 ) ) ;
#17 = EDGE_LOOP ( 'NONE', ( #91 ) ) ;
#18 = FACE_OUTER_BOUND ( 'NONE', #241, .T. ) ;
#19 = ADVANCED_FACE ( 'NONE', ( #306, #179 ), #61, .T. ) ;
#20 = FACE_OUTER_BOUND ( 'NONE', #302, .T. ) ;
#21 = DIRECTION ( 'NONE',  ( 0.000000000000000000, 0.000000000000000000, 1.000000000000000000 ) ) ;
#22 = EDGE_LOOP ( 'NONE', ( #163 ) ) ;
#23 = DIRECTION ( 'NONE',  ( 0.000000000000000000, 0.000000000000000000, 1.000000000000000000 ) ) ;
#24 = CARTESIAN_POINT ( 'NONE',  ( 0.000000000000000000, 0.000000000000000000, 4.000000000000000888 ) ) ;
#25 = EDGE_LOOP ( 'NONE', ( #298 ) ) ;
#26 = CARTESIAN_POINT ( 'NONE',  ( 0.000000000000000000, 0.000000000000000000, 0.000000000000000000 ) ) ;
#27 = VERTEX_POINT ( 'NONE', #131 ) ;
#28 = EDGE_LOOP ( 'NONE', ( #253 ) ) ;
#29 = LOCAL_TIME ( 11, 42, 53.00000000000000000, #53 ) ;
#30 = EDGE_LOOP ( 'NONE', ( #125 ) ) ;
#31 = ADVANCED_FACE ( 'NONE', ( #67, #182 ), #99, .F. ) ;
#32 = PRODUCT_DEFINITION_FORMATION_WITH_SPECIFIED_SOURCE ( 'ANY', '', #267, .NOT_KNOWN. ) ;
#33 = PERSON_AND_ORGANIZATION_ROLE ( 'classification_officer' ) ;
#34 = PERSON_AND_ORGANIZATION ( #221, #154 ) ;
#35 = AXIS2_PLACEMENT_3D ( 'NONE', #157, #66, #71 ) ;
#36 = CALENDAR_DATE ( 2023, 7, 8 ) ;
#37 = EDGE_CURVE ( 'NONE', #98, #98, #74, .T. ) ;
#38 = CC_DESIGN_SECURITY_CLASSIFICATION ( #12, ( #32 ) ) ;
#39 = DIRECTION ( 'NONE',  ( -0.000000000000000000, 1.000000000000000000, -0.000000000000000000 ) ) ;
#40 = FACE_BOUND ( 'NONE', #68, .T. ) ;
#41 = CARTESIAN_POINT ( 'NONE',  ( 0.000000000000000000, 4.600000000000000533, 2.500000000000000000 ) ) ;
#42 = FACE_OUTER_BOUND ( 'NONE', #273, .T. ) ;
#43 = FACE_OUTER_BOUND ( 'NONE', #11, .T. ) ;
#44 = VERTEX_POINT ( 'NONE', #148 ) ;
#45 = CARTESIAN_POINT ( 'NONE',  ( 4.000000000000000888, 0.000000000000000000, 0.000000000000000000 ) ) ;
#46 = DIRECTION ( 'NONE',  ( 0.000000000000000000, 0.000000000000000000, 1.000000000000000000 ) ) ;
#47 = CIRCLE ( 'NONE', #88, 1.000000000000000000 ) ;
#48 = CYLINDRICAL_SURFACE ( 'NONE', #269, 4.000000000000000888 ) ;
#49 = FACE_BOUND ( 'NONE', #30, .T. ) ;
#50 = DIRECTION ( 'NONE',  ( 0.000000000000000000, 0.000000000000000000, 1.000000000000000000 ) ) ;
#51 = CARTESIAN_POINT ( 'NONE',  ( 0.000000000000000000, 8.000000000000000000, 1.000000000000000000 ) ) ;
#52 = ADVANCED_FACE ( 'NONE', ( #42, #49 ), #176, .F. ) ;
#53 = COORDINATED_UNIVERSAL_TIME_OFFSET ( 1, 0, .AHEAD. ) ;
#54 = MECHANICAL_CONTEXT ( 'NONE', #337, 'mechanical' ) ;
#55 = AXIS2_PLACEMENT_3D ( 'NONE', #281, #189, #159 ) ;
#56 = APPROVAL_PERSON_ORGANIZATION ( #171, #143, #83 ) ;
#57 = APPROVAL_DATE_TIME ( #198, #143 ) ;
#58 = CARTESIAN_POINT ( 'NONE',  ( 0.000000000000000000, 0.000000000000000000, 0.000000000000000000 ) ) ;
#59 = CIRCLE ( 'NONE', #251, 2.499999999999999556 ) ;
#60 = ORIENTED_EDGE ( 'NONE', *, *, #225, .T. ) ;
#61 = CYLINDRICAL_SURFACE ( 'NONE', #10, 5.500000000000000000 ) ;
#62 = AXIS2_PLACEMENT_3D ( 'NONE', #242, #277, #307 ) ;
#63 = DIRECTION ( 'NONE',  ( -0.000000000000000000, 1.000000000000000000, -0.000000000000000000 ) ) ;
#64 = ORIENTED_EDGE ( 'NONE', *, *, #134, .T. ) ;
#65 = FACE_BOUND ( 'NONE', #22, .T. ) ;
#66 = DIRECTION ( 'NONE',  ( -0.000000000000000000, 1.000000000000000000, -0.000000000000000000 ) ) ;
#67 = FACE_OUTER_BOUND ( 'NONE', #325, .T. ) ;
#68 = EDGE_LOOP ( 'NONE', ( #100 ) ) ;
#69 = ORIENTED_EDGE ( 'NONE', *, *, #236, .F. ) ;
#70 = DIRECTION ( 'NONE',  ( -0.000000000000000000, 1.000000000000000000, -0.000000000000000000 ) ) ;
#71 = DIRECTION ( 'NONE',  ( 0.000000000000000000, 0.000000000000000000, 1.000000000000000000 ) ) ;
#72 = EDGE_LOOP ( 'NONE', ( #300 ) ) ;
#73 = DIRECTION ( 'NONE',  ( 0.000000000000000000, 0.000000000000000000, 1.000000000000000000 ) ) ;
#74 = CIRCLE ( 'NONE', #81, 2.500000000000000000 ) ;
#75 = FACE_BOUND ( 'NONE', #150, .T. ) ;
#76 = PLANE ( 'NONE',  #62 ) ;
#77 = CC_DESIGN_PERSON_AND_ORGANIZATION_ASSIGNMENT ( #84, #112, ( #309 ) ) ;
#78 = DIRECTION ( 'NONE',  ( 0.000000000000000000, -1.000000000000000000, 0.000000000000000000 ) ) ;
#79 = ORIENTED_EDGE ( 'NONE', *, *, #185, .T. ) ;
#80 = EDGE_LOOP ( 'NONE', ( #85 ) ) ;
#81 = AXIS2_PLACEMENT_3D ( 'NONE', #283, #146, #310 ) ;
#82 = CC_DESIGN_PERSON_AND_ORGANIZATION_ASSIGNMENT ( #329, #169, ( #267 ) ) ;
#83 = APPROVAL_ROLE ( '' ) ;
#84 = PERSON_AND_ORGANIZATION ( #221, #154 ) ;
#85 = ORIENTED_EDGE ( 'NONE', *, *, #229, .F. ) ;
#86 = CALENDAR_DATE ( 2023, 7, 8 ) ;
#87 = APPLICATION_PROTOCOL_DEFINITION ( 'international standard', 'config_control_design', 1994, #168 ) ;
#88 = AXIS2_PLACEMENT_3D ( 'NONE', #126, #314, #238 ) ;
#89 = APPROVAL ( #9, 'UNSPECIFIED' ) ;
#90 = DIRECTION ( 'NONE',  ( 0.000000000000000000, 0.000000000000000000, 1.000000000000000000 ) ) ;
#91 = ORIENTED_EDGE ( 'NONE', *, *, #37, .T. ) ;
#92 = CIRCLE ( 'NONE', #308, 2.600000000000000533 ) ;
#93 = PLANE ( 'NONE',  #286 ) ;
#94 = CARTESIAN_POINT ( 'NONE',  ( 0.000000000000000000, 5.399999999999998579, 2.499999999999999556 ) ) ;
#95 = APPROVAL ( #108, 'UNSPECIFIED' ) ;
#96 = DIRECTION ( 'NONE',  ( -0.000000000000000000, 1.000000000000000000, -0.000000000000000000 ) ) ;
#97 = DIRECTION ( 'NONE',  ( -0.000000000000000000, 1.000000000000000000, -0.000000000000000000 ) ) ;
#98 = VERTEX_POINT ( 'NONE', #282 ) ;
#99 = CYLINDRICAL_SURFACE ( 'NONE', #326, 1.000000000000000000 ) ;
#100 = ORIENTED_EDGE ( 'NONE', *, *, #134, .F. ) ;
#101 = CARTESIAN_POINT ( 'NONE',  ( 0.000000000000000000, 4.599999999999999645, 0.000000000000000000 ) ) ;
#102 = DIRECTION ( 'NONE',  ( -0.000000000000000000, 1.000000000000000000, -0.000000000000000000 ) ) ;
#103 = DIRECTION ( 'NONE',  ( 0.000000000000000000, 0.000000000000000000, 1.000000000000000000 ) ) ;
#104 = PLANE ( 'NONE',  #55 ) ;
#105 = EDGE_CURVE ( 'NONE', #192, #192, #59, .T. ) ;
#106 = APPLICATION_PROTOCOL_DEFINITION ( 'international standard', 'config_control_design', 1994, #337 ) ;
#107 = PERSON_AND_ORGANIZATION ( #221, #154 ) ;
#108 = APPROVAL_STATUS ( 'not_yet_approved' ) ;
#109 = AXIS2_PLACEMENT_3D ( 'NONE', #316, #96, #90 ) ;
#110 = CC_DESIGN_APPROVAL ( #143, ( #32 ) ) ;
#111 = DESIGN_CONTEXT ( 'detailed design', #168, 'design' ) ;
#112 = PERSON_AND_ORGANIZATION_ROLE ( 'creator' ) ;
#113 = EDGE_LOOP ( 'NONE', ( #164 ) ) ;
#114 = ADVANCED_FACE ( 'NONE', ( #338, #346 ), #158, .T. ) ;
#115 = ORIENTED_EDGE ( 'NONE', *, *, #201, .F. ) ;
#116 = AXIS2_PLACEMENT_3D ( 'NONE', #323, #161, #119 ) ;
#117 = CARTESIAN_POINT ( 'NONE',  ( 0.000000000000000000, 8.400000000000000355, 0.000000000000000000 ) ) ;
#118 = DIRECTION ( 'NONE',  ( -0.000000000000000000, 1.000000000000000000, -0.000000000000000000 ) ) ;
#119 = DIRECTION ( 'NONE',  ( 0.000000000000000000, 0.000000000000000000, 1.000000000000000000 ) ) ;
#120 = ORIENTED_EDGE ( 'NONE', *, *, #173, .T. ) ;
#121 = CIRCLE ( 'NONE', #35, 2.600000000000000533 ) ;
#122 = LOCAL_TIME ( 11, 42, 53.00000000000000000, #222 ) ;
#123 = DIRECTION ( 'NONE',  ( -0.000000000000000000, 1.000000000000000000, -0.000000000000000000 ) ) ;
#124 = VERTEX_POINT ( 'NONE', #160 ) ;
#125 = ORIENTED_EDGE ( 'NONE', *, *, #236, .T. ) ;
#126 = CARTESIAN_POINT ( 'NONE',  ( 0.000000000000000000, 2.000000000000000000, 0.000000000000000000 ) ) ;
#127 = EDGE_LOOP ( 'NONE', ( #211 ) ) ;
#128 = MANIFOLD_SOLID_BREP ( 'Rotation1', #342 ) ;
#129 = CC_DESIGN_PERSON_AND_ORGANIZATION_ASSIGNMENT ( #296, #33, ( #12 ) ) ;
#130 = DIRECTION ( 'NONE',  ( 0.000000000000000000, -0.000000000000000000, -1.000000000000000000 ) ) ;
#131 = CARTESIAN_POINT ( 'NONE',  ( 0.000000000000000000, 2.000000000000000000, 4.000000000000000888 ) ) ;
#132 = CIRCLE ( 'NONE', #141, 3.130741759643271394 ) ;
#133 = EDGE_LOOP ( 'NONE', ( #227 ) ) ;
#134 = EDGE_CURVE ( 'NONE', #312, #312, #258, .T. ) ;
#135 = CIRCLE ( 'NONE', #144, 5.500000000000000000 ) ;
#136 = LOCAL_TIME ( 11, 42, 53.00000000000000000, #272 ) ;
#137 = DATE_TIME_ROLE ( 'classification_date' ) ;
#138 = EDGE_CURVE ( 'NONE', #190, #190, #336, .T. ) ;
#139 = CALENDAR_DATE ( 2023, 7, 8 ) ;
#140 = SECURITY_CLASSIFICATION_LEVEL ( 'unclassified' ) ;
#141 = AXIS2_PLACEMENT_3D ( 'NONE', #155, #317, #184 ) ;
#142 = PERSON_AND_ORGANIZATION ( #221, #154 ) ;
#143 = APPROVAL ( #335, 'UNSPECIFIED' ) ;
#144 = AXIS2_PLACEMENT_3D ( 'NONE', #26, #97, #46 ) ;
#145 = CC_DESIGN_APPROVAL ( #89, ( #309 ) ) ;
#146 = DIRECTION ( 'NONE',  ( -0.000000000000000000, 1.000000000000000000, -0.000000000000000000 ) ) ;
#147 = CC_DESIGN_DATE_AND_TIME_ASSIGNMENT ( #249, #137, ( #12 ) ) ;
#148 = CARTESIAN_POINT ( 'NONE',  ( 0.000000000000000000, 0.000000000000000000, 5.500000000000000000 ) ) ;
#149 = DIRECTION ( 'NONE',  ( -0.000000000000000000, 1.000000000000000000, -0.000000000000000000 ) ) ;
#150 = EDGE_LOOP ( 'NONE', ( #237 ) ) ;
#151 = EDGE_LOOP ( 'NONE', ( #333 ) ) ;
#152 = VERTEX_POINT ( 'NONE', #205 ) ;
#153 = DIRECTION ( 'NONE',  ( -0.000000000000000000, 1.000000000000000000, 0.000000000000000000 ) ) ;
#154 = ORGANIZATION ( 'UNSPECIFIED', 'UNSPECIFIED', '' ) ;
#155 = CARTESIAN_POINT ( 'NONE',  ( 0.000000000000000000, 5.499999999999999112, 0.000000000000000000 ) ) ;
#156 = ADVANCED_FACE ( 'NONE', ( #231, #18 ), #294, .T. ) ;
#157 = CARTESIAN_POINT ( 'NONE',  ( 0.000000000000000000, 4.500000000000000000, 0.000000000000000000 ) ) ;
#158 = CYLINDRICAL_SURFACE ( 'NONE', #5, 2.499999999999999556 ) ;
#159 = DIRECTION ( 'NONE',  ( 0.000000000000000000, 0.000000000000000000, 1.000000000000000000 ) ) ;
#160 = CARTESIAN_POINT ( 'NONE',  ( 0.000000000000000000, 2.000000000000000000, 1.000000000000000000 ) ) ;
#161 = DIRECTION ( 'NONE',  ( -0.000000000000000000, 1.000000000000000000, 0.000000000000000000 ) ) ;
#162 = CIRCLE ( 'NONE', #193, 3.362860932364588162 ) ;
#163 = ORIENTED_EDGE ( 'NONE', *, *, #339, .F. ) ;
#164 = ORIENTED_EDGE ( 'NONE', *, *, #138, .F. ) ;
#165 = APPROVAL_DATE_TIME ( #8, #95 ) ;
#166 = CALENDAR_DATE ( 2023, 7, 8 ) ;
#167 = CIRCLE ( 'NONE', #228, 4.000000000000000888 ) ;
#168 = APPLICATION_CONTEXT ( 'configuration controlled 3d designs of mechanical parts and assemblies' ) ;
#169 = PERSON_AND_ORGANIZATION_ROLE ( 'design_owner' ) ;
#170 = SHAPE_DEFINITION_REPRESENTATION ( #246, #202 ) ;
#171 = PERSON_AND_ORGANIZATION ( #221, #154 ) ;
#172 = AXIS2_PLACEMENT_3D ( 'NONE', #45, #153, #103 ) ;
#173 = EDGE_CURVE ( 'NONE', #124, #124, #47, .T. ) ;
#174 = EDGE_LOOP ( 'NONE', ( #120 ) ) ;
#175 = AXIS2_PLACEMENT_3D ( 'NONE', #289, #123, #341 ) ;
#176 = PLANE ( 'NONE',  #172 ) ;
#177 = FACE_OUTER_BOUND ( 'NONE', #240, .T. ) ;
#178 = VERTEX_POINT ( 'NONE', #41 ) ;
#179 = FACE_OUTER_BOUND ( 'NONE', #28, .T. ) ;
#180 = CARTESIAN_POINT ( 'NONE',  ( 0.000000000000000000, 0.000000000000000000, 0.000000000000000000 ) ) ;
#181 = CARTESIAN_POINT ( 'NONE',  ( 0.000000000000000000, 5.842847669088527596, 0.000000000000000000 ) ) ;
#182 = FACE_OUTER_BOUND ( 'NONE', #276, .T. ) ;
#183 = EDGE_LOOP ( 'NONE', ( #210 ) ) ;
#184 = DIRECTION ( 'NONE',  ( 0.000000000000000000, 0.000000000000000000, 1.000000000000000000 ) ) ;
#185 = EDGE_CURVE ( 'NONE', #27, #27, #247, .T. ) ;
#186 = DIRECTION ( 'NONE',  ( -0.000000000000000000, 1.000000000000000000, -0.000000000000000000 ) ) ;
#187 = EDGE_LOOP ( 'NONE', ( #79 ) ) ;
#188 = AXIS2_PLACEMENT_3D ( 'NONE', #101, #212, #204 ) ;
#189 = DIRECTION ( 'NONE',  ( -0.000000000000000000, 1.000000000000000000, 0.000000000000000000 ) ) ;
#190 = VERTEX_POINT ( 'NONE', #265 ) ;
#191 = FACE_OUTER_BOUND ( 'NONE', #313, .T. ) ;
#192 = VERTEX_POINT ( 'NONE', #94 ) ;
#193 = AXIS2_PLACEMENT_3D ( 'NONE', #181, #102, #259 ) ;
#194 = CC_DESIGN_APPROVAL ( #95, ( #12 ) ) ;
#195 = ADVANCED_FACE ( 'NONE', ( #65, #177 ), #76, .F. ) ;
#196 = PERSON_AND_ORGANIZATION_ROLE ( 'design_supplier' ) ;
#197 = LOCAL_TIME ( 11, 42, 53.00000000000000000, #248 ) ;
#198 = DATE_AND_TIME ( #86, #252 ) ;
#199 = DIRECTION ( 'NONE',  ( 0.000000000000000000, 0.000000000000000000, 1.000000000000000000 ) ) ;
#200 = DIRECTION ( 'NONE',  ( 1.000000000000000000, 0.000000000000000000, 0.000000000000000000 ) ) ;
#201 = EDGE_CURVE ( 'NONE', #178, #178, #250, .T. ) ;
#202 = ADVANCED_BREP_SHAPE_REPRESENTATION ( 'UME-110-45-10', ( #128, #304 ), #218 ) ;
#203 = CARTESIAN_POINT ( 'NONE',  ( 0.000000000000000000, 8.400000000000000355, 0.000000000000000000 ) ) ;
#204 = DIRECTION ( 'NONE',  ( 0.000000000000000000, 0.000000000000000000, 1.000000000000000000 ) ) ;
#205 = CARTESIAN_POINT ( 'NONE',  ( 0.000000000000000000, 5.500000000000000000, 2.600000000000000533 ) ) ;
#206 = ORIENTED_EDGE ( 'NONE', *, *, #105, .T. ) ;
#207 = ADVANCED_FACE ( 'NONE', ( #40, #234 ), #93, .F. ) ;
#208 = CARTESIAN_POINT ( 'NONE',  ( 0.000000000000000000, 5.749999999999999112, 0.000000000000000000 ) ) ;
#209 = CARTESIAN_POINT ( 'NONE',  ( 0.000000000000000000, 5.842847669088527596, 3.362860932364588162 ) ) ;
#210 = ORIENTED_EDGE ( 'NONE', *, *, #318, .F. ) ;
#211 = ORIENTED_EDGE ( 'NONE', *, *, #339, .T. ) ;
#212 = DIRECTION ( 'NONE',  ( -0.000000000000000000, 1.000000000000000000, -0.000000000000000000 ) ) ;
#213 = CARTESIAN_POINT ( 'NONE',  ( 0.000000000000000000, 5.842847669088527596, 0.000000000000000000 ) ) ;
#214 = DIRECTION ( 'NONE',  ( 0.000000000000000000, 0.000000000000000000, 1.000000000000000000 ) ) ;
#215 = AXIS2_PLACEMENT_3D ( 'NONE', #216, #118, #23 ) ;
#216 = CARTESIAN_POINT ( 'NONE',  ( 0.000000000000000000, 4.500000000000000000, 0.000000000000000000 ) ) ;
#217 = EDGE_CURVE ( 'NONE', #44, #44, #135, .T. ) ;
#218 =( GEOMETRIC_REPRESENTATION_CONTEXT ( 3 ) GLOBAL_UNCERTAINTY_ASSIGNED_CONTEXT ( ( #327 ) ) GLOBAL_UNIT_ASSIGNED_CONTEXT ( ( #315, #262, #220 ) ) REPRESENTATION_CONTEXT ( 'NONE', 'WORKASPACE' ) );
#219 = ADVANCED_FACE ( 'NONE', ( #191, #348 ), #268, .F. ) ;
#220 =( NAMED_UNIT ( * ) SI_UNIT ( $, .STERADIAN. ) SOLID_ANGLE_UNIT ( ) );
#221 = PERSON ( 'UNSPECIFIED', 'UNSPECIFIED', 'UNSPECIFIED', ('UNSPECIFIED'), ('UNSPECIFIED'), ('UNSPECIFIED') ) ;
#222 = COORDINATED_UNIVERSAL_TIME_OFFSET ( 1, 0, .AHEAD. ) ;
#223 = AXIS2_PLACEMENT_3D ( 'NONE', #340, #149, #257 ) ;
#224 = APPROVAL_ROLE ( '' ) ;
#225 = EDGE_CURVE ( 'NONE', #287, #287, #132, .T. ) ;
#226 = DATE_AND_TIME ( #166, #122 ) ;
#227 = ORIENTED_EDGE ( 'NONE', *, *, #229, .T. ) ;
#228 = AXIS2_PLACEMENT_3D ( 'NONE', #180, #264, #73 ) ;
#229 = EDGE_CURVE ( 'NONE', #152, #152, #92, .T. ) ;
#230 = DIRECTION ( 'NONE',  ( 0.000000000000000000, 0.000000000000000000, 1.000000000000000000 ) ) ;
#231 = FACE_OUTER_BOUND ( 'NONE', #183, .T. ) ;
#232 = CARTESIAN_POINT ( 'NONE',  ( 0.000000000000000000, 5.499999999999999112, 3.130741759643271394 ) ) ;
#233 = FACE_OUTER_BOUND ( 'NONE', #80, .T. ) ;
#234 = FACE_OUTER_BOUND ( 'NONE', #17, .T. ) ;
#235 = VERTEX_POINT ( 'NONE', #209 ) ;
#236 = EDGE_CURVE ( 'NONE', #255, #255, #167, .T. ) ;
#237 = ORIENTED_EDGE ( 'NONE', *, *, #37, .F. ) ;
#238 = DIRECTION ( 'NONE',  ( 0.000000000000000000, 0.000000000000000000, 1.000000000000000000 ) ) ;
#239 = CARTESIAN_POINT ( 'NONE',  ( 0.000000000000000000, 8.400000000000000355, 0.000000000000000000 ) ) ;
#240 = EDGE_LOOP ( 'NONE', ( #324 ) ) ;
#241 = EDGE_LOOP ( 'NONE', ( #60 ) ) ;
#242 = CARTESIAN_POINT ( 'NONE',  ( 5.500000000000000000, 4.500000000000000000, 0.000000000000000000 ) ) ;
#243 = VERTEX_POINT ( 'NONE', #16 ) ;
#244 = AXIS2_PLACEMENT_3D ( 'NONE', #322, #70, #2 ) ;
#245 = CC_DESIGN_DATE_AND_TIME_ASSIGNMENT ( #226, #6, ( #309 ) ) ;
#246 = PRODUCT_DEFINITION_SHAPE ( 'NONE', 'NONE',  #309 ) ;
#247 = CIRCLE ( 'NONE', #244, 4.000000000000000888 ) ;
#248 = COORDINATED_UNIVERSAL_TIME_OFFSET ( 1, 0, .AHEAD. ) ;
#249 = DATE_AND_TIME ( #36, #136 ) ;
#250 = CIRCLE ( 'NONE', #175, 2.500000000000000000 ) ;
#251 = AXIS2_PLACEMENT_3D ( 'NONE', #256, #260, #21 ) ;
#252 = LOCAL_TIME ( 11, 42, 53.00000000000000000, #299 ) ;
#253 = ORIENTED_EDGE ( 'NONE', *, *, #217, .T. ) ;
#254 = CARTESIAN_POINT ( 'NONE',  ( 0.000000000000000000, 5.500000000000000000, 0.000000000000000000 ) ) ;
#255 = VERTEX_POINT ( 'NONE', #24 ) ;
#256 = CARTESIAN_POINT ( 'NONE',  ( 0.000000000000000000, 5.399999999999998579, 0.000000000000000000 ) ) ;
#257 = DIRECTION ( 'NONE',  ( 0.000000000000000000, 0.000000000000000000, 1.000000000000000000 ) ) ;
#258 = CIRCLE ( 'NONE', #223, 1.000000000000000000 ) ;
#259 = DIRECTION ( 'NONE',  ( 0.000000000000000000, 0.000000000000000000, 1.000000000000000000 ) ) ;
#260 = DIRECTION ( 'NONE',  ( -0.000000000000000000, 1.000000000000000000, -0.000000000000000000 ) ) ;
#261 = DIRECTION ( 'NONE',  ( 0.000000000000000000, 0.000000000000000000, 1.000000000000000000 ) ) ;
#262 =( NAMED_UNIT ( * ) PLANE_ANGLE_UNIT ( ) SI_UNIT ( $, .RADIAN. ) );
#263 = DIRECTION ( 'NONE',  ( -0.000000000000000000, 1.000000000000000000, -0.000000000000000000 ) ) ;
#264 = DIRECTION ( 'NONE',  ( -0.000000000000000000, 1.000000000000000000, -0.000000000000000000 ) ) ;
#265 = CARTESIAN_POINT ( 'NONE',  ( 0.000000000000000000, 4.500000000000000000, 5.500000000000000000 ) ) ;
#266 = CC_DESIGN_PERSON_AND_ORGANIZATION_ASSIGNMENT ( #34, #196, ( #32 ) ) ;
#267 = PRODUCT ( 'UME-110-45-10', 'UME-110-45-10', '', ( #54 ) ) ;
#268 = TOROIDAL_SURFACE ( 'NONE', #188, 2.600000000000000089, 0.1000000000000000472 ) ;
#269 = AXIS2_PLACEMENT_3D ( 'NONE', #239, #186, #349 ) ;
#270 = PERSON_AND_ORGANIZATION_ROLE ( 'creator' ) ;
#271 = EDGE_LOOP ( 'NONE', ( #206 ) ) ;
#272 = COORDINATED_UNIVERSAL_TIME_OFFSET ( 1, 0, .AHEAD. ) ;
#273 = EDGE_LOOP ( 'NONE', ( #293 ) ) ;
#274 = CONICAL_SURFACE ( 'NONE', #331, 3.362860932364588162, 0.3805063771123646243 ) ;
#275 = APPROVAL_PERSON_ORGANIZATION ( #142, #95, #224 ) ;
#276 = EDGE_LOOP ( 'NONE', ( #64 ) ) ;
#277 = DIRECTION ( 'NONE',  ( 0.000000000000000000, -1.000000000000000000, 0.000000000000000000 ) ) ;
#278 = PLANE ( 'NONE',  #116 ) ;
#279 = EDGE_LOOP ( 'NONE', ( #284 ) ) ;
#280 = ADVANCED_FACE ( 'NONE', ( #292, #15 ), #104, .F. ) ;
#281 = CARTESIAN_POINT ( 'NONE',  ( 2.600000000000000533, 5.500000000000000000, 0.000000000000000000 ) ) ;
#282 = CARTESIAN_POINT ( 'NONE',  ( 0.000000000000000000, 8.000000000000000000, 2.500000000000000000 ) ) ;
#283 = CARTESIAN_POINT ( 'NONE',  ( 0.000000000000000000, 8.000000000000000000, 0.000000000000000000 ) ) ;
#284 = ORIENTED_EDGE ( 'NONE', *, *, #185, .F. ) ;
#285 = DIRECTION ( 'NONE',  ( 0.000000000000000000, -1.000000000000000000, 0.000000000000000000 ) ) ;
#286 = AXIS2_PLACEMENT_3D ( 'NONE', #344, #285, #130 ) ;
#287 = VERTEX_POINT ( 'NONE', #232 ) ;
#288 = DIRECTION ( 'NONE',  ( 0.000000000000000000, 0.000000000000000000, 1.000000000000000000 ) ) ;
#289 = CARTESIAN_POINT ( 'NONE',  ( 0.000000000000000000, 4.600000000000000533, 0.000000000000000000 ) ) ;
#290 = ADVANCED_FACE ( 'NONE', ( #43, #345 ), #48, .F. ) ;
#291 = FACE_BOUND ( 'NONE', #174, .T. ) ;
#292 = FACE_OUTER_BOUND ( 'NONE', #72, .T. ) ;
#293 = ORIENTED_EDGE ( 'NONE', *, *, #217, .F. ) ;
#294 = TOROIDAL_SURFACE ( 'NONE', #330, 3.130741759643274946, 0.2500000000000000000 ) ;
#295 = PERSON_AND_ORGANIZATION ( #221, #154 ) ;
#296 = PERSON_AND_ORGANIZATION ( #221, #154 ) ;
#297 = ADVANCED_FACE ( 'NONE', ( #320, #291 ), #278, .F. ) ;
#298 = ORIENTED_EDGE ( 'NONE', *, *, #201, .T. ) ;
#299 = COORDINATED_UNIVERSAL_TIME_OFFSET ( 1, 0, .AHEAD. ) ;
#300 = ORIENTED_EDGE ( 'NONE', *, *, #225, .F. ) ;
#301 = DATE_AND_TIME ( #139, #197 ) ;
#302 = EDGE_LOOP ( 'NONE', ( #4 ) ) ;
#303 = CC_DESIGN_PERSON_AND_ORGANIZATION_ASSIGNMENT ( #295, #270, ( #32 ) ) ;
#304 = AXIS2_PLACEMENT_3D ( 'NONE', #58, #199, #200 ) ;
#305 = ORIENTED_EDGE ( 'NONE', *, *, #173, .F. ) ;
#306 = FACE_OUTER_BOUND ( 'NONE', #113, .T. ) ;
#307 = DIRECTION ( 'NONE',  ( 0.000000000000000000, -0.000000000000000000, -1.000000000000000000 ) ) ;
#308 = AXIS2_PLACEMENT_3D ( 'NONE', #254, #311, #261 ) ;
#309 = PRODUCT_DEFINITION ( 'UNKNOWN', '', #32, #111 ) ;
#310 = DIRECTION ( 'NONE',  ( 0.000000000000000000, 0.000000000000000000, 1.000000000000000000 ) ) ;
#311 = DIRECTION ( 'NONE',  ( -0.000000000000000000, 1.000000000000000000, -0.000000000000000000 ) ) ;
#312 = VERTEX_POINT ( 'NONE', #51 ) ;
#313 = EDGE_LOOP ( 'NONE', ( #115 ) ) ;
#314 = DIRECTION ( 'NONE',  ( -0.000000000000000000, 1.000000000000000000, -0.000000000000000000 ) ) ;
#315 =( LENGTH_UNIT ( ) NAMED_UNIT ( * ) SI_UNIT ( .MILLI., .METRE. ) );
#316 = CARTESIAN_POINT ( 'NONE',  ( 0.000000000000000000, 5.399999999999999467, 0.000000000000000000 ) ) ;
#317 = DIRECTION ( 'NONE',  ( -0.000000000000000000, 1.000000000000000000, -0.000000000000000000 ) ) ;
#318 = EDGE_CURVE ( 'NONE', #235, #235, #162, .T. ) ;
#319 = TOROIDAL_SURFACE ( 'NONE', #109, 2.600000000000000089, 0.1000000000000000472 ) ;
#320 = FACE_OUTER_BOUND ( 'NONE', #279, .T. ) ;
#321 = DIRECTION ( 'NONE',  ( -0.000000000000000000, 1.000000000000000000, -0.000000000000000000 ) ) ;
#322 = CARTESIAN_POINT ( 'NONE',  ( 0.000000000000000000, 2.000000000000000000, 0.000000000000000000 ) ) ;
#323 = CARTESIAN_POINT ( 'NONE',  ( 4.000000000000000888, 2.000000000000000000, 0.000000000000000000 ) ) ;
#324 = ORIENTED_EDGE ( 'NONE', *, *, #138, .T. ) ;
#325 = EDGE_LOOP ( 'NONE', ( #305 ) ) ;
#326 = AXIS2_PLACEMENT_3D ( 'NONE', #14, #321, #214 ) ;
#327 = UNCERTAINTY_MEASURE_WITH_UNIT (LENGTH_MEASURE( 1.000000000000000082E-05 ), #315, 'distance_accuracy_value', 'NONE');
#328 = APPROVAL_ROLE ( '' ) ;
#329 = PERSON_AND_ORGANIZATION ( #221, #154 ) ;
#330 = AXIS2_PLACEMENT_3D ( 'NONE', #208, #63, #50 ) ;
#331 = AXIS2_PLACEMENT_3D ( 'NONE', #213, #78, #343 ) ;
#332 = CALENDAR_DATE ( 2023, 7, 8 ) ;
#333 = ORIENTED_EDGE ( 'NONE', *, *, #105, .F. ) ;
#334 = APPROVAL_DATE_TIME ( #301, #89 ) ;
#335 = APPROVAL_STATUS ( 'not_yet_approved' ) ;
#336 = CIRCLE ( 'NONE', #215, 5.500000000000000000 ) ;
#337 = APPLICATION_CONTEXT ( 'configuration controlled 3d designs of mechanical parts and assemblies' ) ;
#338 = FACE_OUTER_BOUND ( 'NONE', #151, .T. ) ;
#339 = EDGE_CURVE ( 'NONE', #243, #243, #121, .T. ) ;
#340 = CARTESIAN_POINT ( 'NONE',  ( 0.000000000000000000, 8.000000000000000000, 0.000000000000000000 ) ) ;
#341 = DIRECTION ( 'NONE',  ( 0.000000000000000000, 0.000000000000000000, 1.000000000000000000 ) ) ;
#342 = CLOSED_SHELL ( 'NONE', ( #290, #52, #19, #195, #219, #114, #7, #280, #156, #347, #207, #31, #297 ) ) ;
#343 = DIRECTION ( 'NONE',  ( 0.000000000000000000, 0.000000000000000000, -1.000000000000000000 ) ) ;
#344 = CARTESIAN_POINT ( 'NONE',  ( 1.000000000000000000, 8.000000000000000000, 0.000000000000000000 ) ) ;
#345 = FACE_OUTER_BOUND ( 'NONE', #187, .T. ) ;
#346 = FACE_OUTER_BOUND ( 'NONE', #25, .T. ) ;
#347 = ADVANCED_FACE ( 'NONE', ( #75, #20 ), #274, .T. ) ;
#348 = FACE_OUTER_BOUND ( 'NONE', #127, .T. ) ;
#349 = DIRECTION ( 'NONE',  ( 0.000000000000000000, 0.000000000000000000, 1.000000000000000000 ) ) ;
ENDSEC;
END-ISO-10303-21;
